ISO-10303-21;
HEADER;
FILE_DESCRIPTION (( 'STEP AP203' ),
    '1' );
FILE_NAME ('BK7-NPBSC-20-900-1200.STEP',
    '2020-12-22T02:10:58',
    ( '' ),
    ( '' ),
    'SwSTEP 2.0',
    'SolidWorks 2020',
    '' );
FILE_SCHEMA (( 'CONFIG_CONTROL_DESIGN' ));
ENDSEC;

DATA;
#1 = ORIENTED_EDGE ( 'NONE', *, *, #149, .T. ) ;
#2 = CARTESIAN_POINT ( 'NONE',  ( -10.00000000000000178, -9.999999999999996447, 10.00000000000000000 ) ) ;
#3 = ORIENTED_EDGE ( 'NONE', *, *, #24, .T. ) ;
#4 = EDGE_LOOP ( 'NONE', ( #236, #223, #79, #160 ) ) ;
#5 = DIRECTION ( 'NONE',  ( 0.7071067811865475727, 0.7071067811865474617, 0.000000000000000000 ) ) ;
#6 = DIRECTION ( 'NONE',  ( 0.000000000000000000, 0.000000000000000000, 1.000000000000000000 ) ) ;
#7 = EDGE_CURVE ( 'NONE', #46, #201, #106, .T. ) ;
#8 = AXIS2_PLACEMENT_3D ( 'NONE', #253, #44, #59 ) ;
#9 = CARTESIAN_POINT ( 'NONE',  ( -9.999999999999998224, -10.00000000000000000, 10.00000000000000000 ) ) ;
#10 = VECTOR ( 'NONE', #141, 1000.000000000000000 ) ;
#11 = CARTESIAN_POINT ( 'NONE',  ( -9.999999999999998224, -10.00000000000000000, 10.00000000000000000 ) ) ;
#12 = VECTOR ( 'NONE', #95, 1000.000000000000000 ) ;
#13 = VECTOR ( 'NONE', #38, 1000.000000000000000 ) ;
#14 = DIRECTION ( 'NONE',  ( 2.220446049250313081E-16, 1.000000000000000000, 0.000000000000000000 ) ) ;
#15 = CC_DESIGN_APPROVAL ( #42, ( #233 ) ) ;
#16 = EDGE_LOOP ( 'NONE', ( #219, #250, #148 ) ) ;
#17 = LINE ( 'NONE', #67, #58 ) ;
#18 = CALENDAR_DATE ( 2020, 22, 12 ) ;
#19 = DIRECTION ( 'NONE',  ( 2.220446049250313081E-16, 1.000000000000000000, 0.000000000000000000 ) ) ;
#20 = DIRECTION ( 'NONE',  ( -0.000000000000000000, 0.000000000000000000, -1.000000000000000000 ) ) ;
#21 = VECTOR ( 'NONE', #71, 1000.000000000000000 ) ;
#22 = CARTESIAN_POINT ( 'NONE',  ( -10.00000000000000178, -9.999999999999996447, 10.00000000000000000 ) ) ;
#23 = PRODUCT_DEFINITION ( 'UNKNOWN', '', #204, #312 ) ;
#24 = EDGE_CURVE ( 'NONE', #184, #46, #17, .T. ) ;
#25 = VERTEX_POINT ( 'NONE', #261 ) ;
#26 = DIRECTION ( 'NONE',  ( 2.220446049250313081E-16, 1.000000000000000000, 0.000000000000000000 ) ) ;
#27 = PERSON_AND_ORGANIZATION ( #85, #246 ) ;
#28 = ADVANCED_FACE ( 'NONE', ( #134 ), #185, .F. ) ;
#29 = ORIENTED_EDGE ( 'NONE', *, *, #130, .F. ) ;
#30 = PLANE ( 'NONE',  #311 ) ;
#31 = CC_DESIGN_APPROVAL ( #319, ( #23 ) ) ;
#32 = ORIENTED_EDGE ( 'NONE', *, *, #68, .T. ) ;
#33 = DATE_AND_TIME ( #174, #296 ) ;
#34 = ORIENTED_EDGE ( 'NONE', *, *, #68, .F. ) ;
#35 = PERSON_AND_ORGANIZATION_ROLE ( 'design_supplier' ) ;
#36 = CALENDAR_DATE ( 2020, 22, 12 ) ;
#37 = VECTOR ( 'NONE', #194, 1000.000000000000000 ) ;
#38 = DIRECTION ( 'NONE',  ( 1.000000000000000000, -2.220446049250313081E-16, 0.000000000000000000 ) ) ;
#39 = DIRECTION ( 'NONE',  ( -0.000000000000000000, 0.000000000000000000, -1.000000000000000000 ) ) ;
#40 = LINE ( 'NONE', #308, #188 ) ;
#41 = COORDINATED_UNIVERSAL_TIME_OFFSET ( 8, 0, .AHEAD. ) ;
#42 = APPROVAL ( #297, 'UNSPECIFIED' ) ;
#43 = ORIENTED_EDGE ( 'NONE', *, *, #231, .T. ) ;
#44 = DIRECTION ( 'NONE',  ( -0.7071067811865474617, 0.7071067811865475727, 0.000000000000000000 ) ) ;
#45 =( LENGTH_UNIT ( ) NAMED_UNIT ( * ) SI_UNIT ( .MILLI., .METRE. ) );
#46 = VERTEX_POINT ( 'NONE', #133 ) ;
#47 = DIRECTION ( 'NONE',  ( 1.000000000000000000, -2.220446049250313081E-16, 0.000000000000000000 ) ) ;
#48 = PERSON_AND_ORGANIZATION ( #85, #246 ) ;
#49 = CARTESIAN_POINT ( 'NONE',  ( 10.00000000000000000, 10.00000000000000000, 10.00000000000000000 ) ) ;
#50 = DIRECTION ( 'NONE',  ( 1.000000000000000000, 0.000000000000000000, 0.000000000000000000 ) ) ;
#51 = DIRECTION ( 'NONE',  ( 0.000000000000000000, 1.000000000000000000, 0.000000000000000000 ) ) ;
#52 = CALENDAR_DATE ( 2020, 22, 12 ) ;
#53 = DIRECTION ( 'NONE',  ( 0.000000000000000000, -0.000000000000000000, 1.000000000000000000 ) ) ;
#54 = CC_DESIGN_APPROVAL ( #301, ( #204 ) ) ;
#55 = PERSON_AND_ORGANIZATION ( #85, #246 ) ;
#56 = ORIENTED_EDGE ( 'NONE', *, *, #190, .T. ) ;
#57 = DATE_AND_TIME ( #36, #271 ) ;
#58 = VECTOR ( 'NONE', #89, 1000.000000000000000 ) ;
#59 = DIRECTION ( 'NONE',  ( 0.7071067811865475727, 0.7071067811865474617, 0.000000000000000000 ) ) ;
#60 = CARTESIAN_POINT ( 'NONE',  ( -10.00000000000000178, -9.999999999999996447, 10.00000000000000000 ) ) ;
#61 = EDGE_CURVE ( 'NONE', #145, #124, #183, .T. ) ;
#62 = LINE ( 'NONE', #163, #306 ) ;
#63 = AXIS2_PLACEMENT_3D ( 'NONE', #116, #215, #93 ) ;
#64 = CC_DESIGN_PERSON_AND_ORGANIZATION_ASSIGNMENT ( #274, #200, ( #233 ) ) ;
#65 = APPROVAL_ROLE ( '' ) ;
#66 = ORIENTED_EDGE ( 'NONE', *, *, #158, .T. ) ;
#67 = CARTESIAN_POINT ( 'NONE',  ( -9.999999999999998224, 10.00000000000000355, 10.00000000000000000 ) ) ;
#68 = EDGE_CURVE ( 'NONE', #260, #244, #62, .T. ) ;
#69 = EDGE_CURVE ( 'NONE', #70, #145, #206, .T. ) ;
#70 = VERTEX_POINT ( 'NONE', #9 ) ;
#71 = DIRECTION ( 'NONE',  ( -0.7071067811865475727, -0.7071067811865474617, 0.000000000000000000 ) ) ;
#72 = MANIFOLD_SOLID_BREP ( 'Í¹Ì¨-À', #112 ) ;
#73 =( NAMED_UNIT ( * ) PLANE_ANGLE_UNIT ( ) SI_UNIT ( $, .RADIAN. ) );
#74 = ORIENTED_EDGE ( 'NONE', *, *, #69, .F. ) ;
#75 = CARTESIAN_POINT ( 'NONE',  ( 10.00000000000000000, 10.00000000000000000, -10.00000000000000000 ) ) ;
#76 = DIRECTION ( 'NONE',  ( -0.000000000000000000, 1.000000000000000000, -0.000000000000000000 ) ) ;
#77 = LINE ( 'NONE', #2, #251 ) ;
#78 = LINE ( 'NONE', #140, #86 ) ;
#79 = ORIENTED_EDGE ( 'NONE', *, *, #104, .F. ) ;
#80 = FACE_OUTER_BOUND ( 'NONE', #199, .T. ) ;
#81 = ORIENTED_EDGE ( 'NONE', *, *, #190, .F. ) ;
#82 = LINE ( 'NONE', #75, #12 ) ;
#83 = COORDINATED_UNIVERSAL_TIME_OFFSET ( 8, 0, .AHEAD. ) ;
#84 = SHAPE_DEFINITION_REPRESENTATION ( #154, #209 ) ;
#85 = PERSON ( 'UNSPECIFIED', 'UNSPECIFIED', 'UNSPECIFIED', ('UNSPECIFIED'), ('UNSPECIFIED'), ('UNSPECIFIED') ) ;
#86 = VECTOR ( 'NONE', #20, 1000.000000000000000 ) ;
#87 = CARTESIAN_POINT ( 'NONE',  ( 10.00000000000000178, -10.00000000000000000, -10.00000000000000000 ) ) ;
#88 = ADVANCED_FACE ( 'NONE', ( #113 ), #181, .F. ) ;
#89 = DIRECTION ( 'NONE',  ( -0.000000000000000000, 0.000000000000000000, -1.000000000000000000 ) ) ;
#90 = ORIENTED_EDGE ( 'NONE', *, *, #104, .T. ) ;
#91 = VECTOR ( 'NONE', #237, 1000.000000000000000 ) ;
#92 = CARTESIAN_POINT ( 'NONE',  ( -10.00000000000000178, -9.999999999999996447, -10.00000000000000000 ) ) ;
#93 = DIRECTION ( 'NONE',  ( 0.000000000000000000, 0.000000000000000000, 1.000000000000000000 ) ) ;
#94 = APPROVAL_DATE_TIME ( #292, #319 ) ;
#95 = DIRECTION ( 'NONE',  ( -0.7071067811865475727, -0.7071067811865474617, 0.000000000000000000 ) ) ;
#96 =( NAMED_UNIT ( * ) SI_UNIT ( $, .STERADIAN. ) SOLID_ANGLE_UNIT ( ) );
#97 = EDGE_LOOP ( 'NONE', ( #268, #100, #56, #287 ) ) ;
#98 = CARTESIAN_POINT ( 'NONE',  ( 10.00000000000000178, 9.999999999999998224, -10.00000000000000000 ) ) ;
#99 = APPROVAL_STATUS ( 'not_yet_approved' ) ;
#100 = ORIENTED_EDGE ( 'NONE', *, *, #24, .F. ) ;
#101 = APPROVAL_ROLE ( '' ) ;
#102 = ORIENTED_EDGE ( 'NONE', *, *, #304, .T. ) ;
#103 = CALENDAR_DATE ( 2020, 22, 12 ) ;
#104 = EDGE_CURVE ( 'NONE', #70, #119, #182, .T. ) ;
#105 = ORIENTED_EDGE ( 'NONE', *, *, #128, .T. ) ;
#106 = LINE ( 'NONE', #252, #13 ) ;
#107 = AXIS2_PLACEMENT_3D ( 'NONE', #295, #51, #53 ) ;
#108 = ADVANCED_FACE ( 'NONE', ( #310 ), #161, .F. ) ;
#109 = FACE_OUTER_BOUND ( 'NONE', #265, .T. ) ;
#110 = VECTOR ( 'NONE', #14, 1000.000000000000000 ) ;
#111 = CARTESIAN_POINT ( 'NONE',  ( 10.00000000000000178, -10.00000000000000000, 10.00000000000000000 ) ) ;
#112 = CLOSED_SHELL ( 'NONE', ( #155, #179, #171, #272, #207 ) ) ;
#113 = FACE_OUTER_BOUND ( 'NONE', #97, .T. ) ;
#114 = AXIS2_PLACEMENT_3D ( 'NONE', #321, #316, #50 ) ;
#115 = DIRECTION ( 'NONE',  ( -0.000000000000000000, -0.000000000000000000, -1.000000000000000000 ) ) ;
#116 = CARTESIAN_POINT ( 'NONE',  ( 10.00000000000000178, 9.999999999999998224, 10.00000000000000000 ) ) ;
#117 = AXIS2_PLACEMENT_3D ( 'NONE', #213, #151, #5 ) ;
#118 = PERSON_AND_ORGANIZATION ( #85, #246 ) ;
#119 = VERTEX_POINT ( 'NONE', #111 ) ;
#120 = PLANE ( 'NONE',  #107 ) ;
#121 = PERSON_AND_ORGANIZATION ( #85, #246 ) ;
#122 = CC_DESIGN_PERSON_AND_ORGANIZATION_ASSIGNMENT ( #226, #35, ( #204 ) ) ;
#123 = AXIS2_PLACEMENT_3D ( 'NONE', #264, #212, #290 ) ;
#124 = VERTEX_POINT ( 'NONE', #87 ) ;
#125 = DIRECTION ( 'NONE',  ( 0.000000000000000000, -0.000000000000000000, 1.000000000000000000 ) ) ;
#126 = PERSON_AND_ORGANIZATION_ROLE ( 'creator' ) ;
#127 = AXIS2_PLACEMENT_3D ( 'NONE', #60, #47, #6 ) ;
#128 = EDGE_CURVE ( 'NONE', #124, #225, #40, .T. ) ;
#129 = DATE_AND_TIME ( #103, #315 ) ;
#130 = EDGE_CURVE ( 'NONE', #227, #225, #314, .T. ) ;
#131 = SECURITY_CLASSIFICATION_LEVEL ( 'unclassified' ) ;
#132 = CARTESIAN_POINT ( 'NONE',  ( -9.999999999999998224, -10.00000000000000000, 10.00000000000000000 ) ) ;
#133 = CARTESIAN_POINT ( 'NONE',  ( -9.999999999999998224, 10.00000000000000355, -10.00000000000000000 ) ) ;
#134 = FACE_OUTER_BOUND ( 'NONE', #172, .T. ) ;
#135 = CC_DESIGN_SECURITY_CLASSIFICATION ( #233, ( #204 ) ) ;
#136 = AXIS2_PLACEMENT_3D ( 'NONE', #208, #153, #203 ) ;
#137 = ORIENTED_EDGE ( 'NONE', *, *, #282, .F. ) ;
#138 = DIRECTION ( 'NONE',  ( -0.000000000000000000, 1.000000000000000000, -0.000000000000000000 ) ) ;
#139 = CARTESIAN_POINT ( 'NONE',  ( 10.00000000000000178, 9.999999999999998224, 10.00000000000000000 ) ) ;
#140 = CARTESIAN_POINT ( 'NONE',  ( 10.00000000000000000, 10.00000000000000000, 10.00000000000000000 ) ) ;
#141 = DIRECTION ( 'NONE',  ( 1.000000000000000000, -2.220446049250313081E-16, 0.000000000000000000 ) ) ;
#142 = ORIENTED_EDGE ( 'NONE', *, *, #313, .F. ) ;
#143 = PLANE ( 'NONE',  #152 ) ;
#144 = PERSON_AND_ORGANIZATION_ROLE ( 'design_owner' ) ;
#145 = VERTEX_POINT ( 'NONE', #189 ) ;
#146 = APPROVAL_PERSON_ORGANIZATION ( #121, #301, #195 ) ;
#147 = ORIENTED_EDGE ( 'NONE', *, *, #313, .T. ) ;
#148 = ORIENTED_EDGE ( 'NONE', *, *, #61, .F. ) ;
#149 = EDGE_CURVE ( 'NONE', #119, #124, #205, .T. ) ;
#150 = LINE ( 'NONE', #288, #21 ) ;
#151 = DIRECTION ( 'NONE',  ( 0.7071067811865474617, -0.7071067811865475727, 0.000000000000000000 ) ) ;
#152 = AXIS2_PLACEMENT_3D ( 'NONE', #317, #269, #245 ) ;
#153 = DIRECTION ( 'NONE',  ( -2.220446049250313081E-16, -1.000000000000000000, 0.000000000000000000 ) ) ;
#154 = PRODUCT_DEFINITION_SHAPE ( 'NONE', 'NONE',  #23 ) ;
#155 = ADVANCED_FACE ( 'NONE', ( #279 ), #307, .F. ) ;
#156 = APPLICATION_CONTEXT ( 'configuration controlled 3d designs of mechanical parts and assemblies' ) ;
#157 = APPROVAL_PERSON_ORGANIZATION ( #118, #319, #65 ) ;
#158 = EDGE_CURVE ( 'NONE', #225, #145, #150, .T. ) ;
#159 = DATE_AND_TIME ( #52, #284 ) ;
#160 = ORIENTED_EDGE ( 'NONE', *, *, #69, .T. ) ;
#161 = PLANE ( 'NONE',  #8 ) ;
#162 = ORIENTED_EDGE ( 'NONE', *, *, #7, .T. ) ;
#163 = CARTESIAN_POINT ( 'NONE',  ( -10.00000000000000178, -9.999999999999996447, 10.00000000000000000 ) ) ;
#164 = ADVANCED_FACE ( 'NONE', ( #109 ), #232, .F. ) ;
#165 = ORIENTED_EDGE ( 'NONE', *, *, #130, .T. ) ;
#166 = PERSON_AND_ORGANIZATION_ROLE ( 'creator' ) ;
#167 = CARTESIAN_POINT ( 'NONE',  ( -10.00000000000000178, -9.999999999999996447, -10.00000000000000000 ) ) ;
#168 = MECHANICAL_CONTEXT ( 'NONE', #156, 'mechanical' ) ;
#169 = EDGE_LOOP ( 'NONE', ( #66, #74, #273, #165 ) ) ;
#170 = PLANE ( 'NONE',  #114 ) ;
#171 = ADVANCED_FACE ( 'NONE', ( #266 ), #291, .F. ) ;
#172 = EDGE_LOOP ( 'NONE', ( #302, #34, #248, #3 ) ) ;
#173 = FACE_OUTER_BOUND ( 'NONE', #177, .T. ) ;
#174 = CALENDAR_DATE ( 2020, 22, 12 ) ;
#175 = UNCERTAINTY_MEASURE_WITH_UNIT (LENGTH_MEASURE( 1.000000000000000082E-05 ), #45, 'distance_accuracy_value', 'NONE');
#176 = APPROVAL_PERSON_ORGANIZATION ( #55, #42, #101 ) ;
#177 = EDGE_LOOP ( 'NONE', ( #270, #81, #298 ) ) ;
#178 = MANIFOLD_SOLID_BREP ( '¾µÏ', #258 ) ;
#179 = ADVANCED_FACE ( 'NONE', ( #263 ), #120, .F. ) ;
#180 = APPLICATION_CONTEXT ( 'configuration controlled 3d designs of mechanical parts and assemblies' ) ;
#181 = PLANE ( 'NONE',  #136 ) ;
#182 = LINE ( 'NONE', #132, #286 ) ;
#183 = LINE ( 'NONE', #280, #303 ) ;
#184 = VERTEX_POINT ( 'NONE', #293 ) ;
#185 = PLANE ( 'NONE',  #127 ) ;
#186 = VECTOR ( 'NONE', #76, 1000.000000000000000 ) ;
#187 = CARTESIAN_POINT ( 'NONE',  ( 10.00000000000000000, 10.00000000000000000, 10.00000000000000000 ) ) ;
#188 = VECTOR ( 'NONE', #138, 1000.000000000000000 ) ;
#189 = CARTESIAN_POINT ( 'NONE',  ( -9.999999999999998224, -10.00000000000000000, -10.00000000000000000 ) ) ;
#190 = EDGE_CURVE ( 'NONE', #184, #25, #239, .T. ) ;
#191 = CARTESIAN_POINT ( 'NONE',  ( 0.000000000000000000, 0.000000000000000000, 10.00000000000000000 ) ) ;
#192 = LINE ( 'NONE', #320, #37 ) ;
#193 = COORDINATED_UNIVERSAL_TIME_OFFSET ( 8, 0, .AHEAD. ) ;
#194 = DIRECTION ( 'NONE',  ( -0.7071067811865475727, -0.7071067811865474617, 0.000000000000000000 ) ) ;
#195 = APPROVAL_ROLE ( '' ) ;
#196 = ORIENTED_EDGE ( 'NONE', *, *, #231, .F. ) ;
#197 = DIRECTION ( 'NONE',  ( 2.220446049250313081E-16, 1.000000000000000000, 0.000000000000000000 ) ) ;
#198 = CC_DESIGN_PERSON_AND_ORGANIZATION_ASSIGNMENT ( #249, #126, ( #204 ) ) ;
#199 = EDGE_LOOP ( 'NONE', ( #283, #90, #147 ) ) ;
#200 = PERSON_AND_ORGANIZATION_ROLE ( 'classification_officer' ) ;
#201 = VERTEX_POINT ( 'NONE', #240 ) ;
#202 = AXIS2_PLACEMENT_3D ( 'NONE', #234, #289, #19 ) ;
#203 = DIRECTION ( 'NONE',  ( 0.000000000000000000, 0.000000000000000000, 1.000000000000000000 ) ) ;
#204 = PRODUCT_DEFINITION_FORMATION_WITH_SPECIFIED_SOURCE ( 'ANY', '', #309, .NOT_KNOWN. ) ;
#205 = LINE ( 'NONE', #305, #255 ) ;
#206 = LINE ( 'NONE', #11, #277 ) ;
#207 = ADVANCED_FACE ( 'NONE', ( #217 ), #143, .F. ) ;
#208 = CARTESIAN_POINT ( 'NONE',  ( 10.00000000000000000, 10.00000000000000000, 10.00000000000000000 ) ) ;
#209 = ADVANCED_BREP_SHAPE_REPRESENTATION ( 'BK7-NPBSC-20-900-1200', ( #72, #178, #123 ), #230 ) ;
#210 = VECTOR ( 'NONE', #318, 1000.000000000000000 ) ;
#211 = CC_DESIGN_DATE_AND_TIME_ASSIGNMENT ( #57, #275, ( #233 ) ) ;
#212 = DIRECTION ( 'NONE',  ( 0.000000000000000000, 0.000000000000000000, 1.000000000000000000 ) ) ;
#213 = CARTESIAN_POINT ( 'NONE',  ( 10.00000000000000178, 9.999999999999998224, 10.00000000000000000 ) ) ;
#214 = APPLICATION_PROTOCOL_DEFINITION ( 'international standard', 'config_control_design', 1994, #156 ) ;
#215 = DIRECTION ( 'NONE',  ( -1.000000000000000000, 0.000000000000000000, 0.000000000000000000 ) ) ;
#216 = COORDINATED_UNIVERSAL_TIME_OFFSET ( 8, 0, .AHEAD. ) ;
#217 = FACE_OUTER_BOUND ( 'NONE', #16, .T. ) ;
#218 = APPLICATION_PROTOCOL_DEFINITION ( 'international standard', 'config_control_design', 1994, #180 ) ;
#219 = ORIENTED_EDGE ( 'NONE', *, *, #158, .F. ) ;
#220 = CARTESIAN_POINT ( 'NONE',  ( 10.00000000000000178, 9.999999999999998224, 10.00000000000000000 ) ) ;
#221 = LINE ( 'NONE', #92, #110 ) ;
#222 = ADVANCED_FACE ( 'NONE', ( #173 ), #30, .T. ) ;
#223 = ORIENTED_EDGE ( 'NONE', *, *, #149, .F. ) ;
#224 = APPROVAL_DATE_TIME ( #129, #301 ) ;
#225 = VERTEX_POINT ( 'NONE', #98 ) ;
#226 = PERSON_AND_ORGANIZATION ( #85, #246 ) ;
#227 = VERTEX_POINT ( 'NONE', #220 ) ;
#228 = EDGE_CURVE ( 'NONE', #260, #184, #77, .T. ) ;
#229 = COORDINATED_UNIVERSAL_TIME_OFFSET ( 8, 0, .AHEAD. ) ;
#230 =( GEOMETRIC_REPRESENTATION_CONTEXT ( 3 ) GLOBAL_UNCERTAINTY_ASSIGNED_CONTEXT ( ( #175 ) ) GLOBAL_UNIT_ASSIGNED_CONTEXT ( ( #45, #73, #96 ) ) REPRESENTATION_CONTEXT ( 'NONE', 'WORKASPACE' ) );
#231 = EDGE_CURVE ( 'NONE', #201, #244, #82, .T. ) ;
#232 = PLANE ( 'NONE',  #202 ) ;
#233 = SECURITY_CLASSIFICATION ( '', '', #131 ) ;
#234 = CARTESIAN_POINT ( 'NONE',  ( 0.000000000000000000, 0.000000000000000000, -10.00000000000000000 ) ) ;
#235 = CC_DESIGN_DATE_AND_TIME_ASSIGNMENT ( #159, #243, ( #23 ) ) ;
#236 = ORIENTED_EDGE ( 'NONE', *, *, #61, .T. ) ;
#237 = DIRECTION ( 'NONE',  ( -0.000000000000000000, -0.000000000000000000, -1.000000000000000000 ) ) ;
#238 = LINE ( 'NONE', #187, #210 ) ;
#239 = LINE ( 'NONE', #49, #10 ) ;
#240 = CARTESIAN_POINT ( 'NONE',  ( 10.00000000000000000, 10.00000000000000000, -10.00000000000000000 ) ) ;
#241 = LINE ( 'NONE', #285, #186 ) ;
#242 = EDGE_LOOP ( 'NONE', ( #196, #137, #276, #32 ) ) ;
#243 = DATE_TIME_ROLE ( 'creation_date' ) ;
#244 = VERTEX_POINT ( 'NONE', #167 ) ;
#245 = DIRECTION ( 'NONE',  ( 1.000000000000000000, 0.000000000000000000, 0.000000000000000000 ) ) ;
#246 = ORGANIZATION ( 'UNSPECIFIED', 'UNSPECIFIED', '' ) ;
#247 = CC_DESIGN_PERSON_AND_ORGANIZATION_ASSIGNMENT ( #48, #166, ( #23 ) ) ;
#248 = ORIENTED_EDGE ( 'NONE', *, *, #228, .T. ) ;
#249 = PERSON_AND_ORGANIZATION ( #85, #246 ) ;
#250 = ORIENTED_EDGE ( 'NONE', *, *, #128, .F. ) ;
#251 = VECTOR ( 'NONE', #197, 1000.000000000000000 ) ;
#252 = CARTESIAN_POINT ( 'NONE',  ( 10.00000000000000000, 10.00000000000000000, -10.00000000000000000 ) ) ;
#253 = CARTESIAN_POINT ( 'NONE',  ( 10.00000000000000000, 10.00000000000000000, 10.00000000000000000 ) ) ;
#254 = DIRECTION ( 'NONE',  ( -0.000000000000000000, -0.000000000000000000, -1.000000000000000000 ) ) ;
#255 = VECTOR ( 'NONE', #115, 1000.000000000000000 ) ;
#256 = CC_DESIGN_PERSON_AND_ORGANIZATION_ASSIGNMENT ( #27, #144, ( #309 ) ) ;
#257 = PRODUCT_RELATED_PRODUCT_CATEGORY ( 'detail', '', ( #309 ) ) ;
#258 = CLOSED_SHELL ( 'NONE', ( #108, #28, #88, #222, #164 ) ) ;
#259 = DIRECTION ( 'NONE',  ( 1.000000000000000000, 0.000000000000000000, 0.000000000000000000 ) ) ;
#260 = VERTEX_POINT ( 'NONE', #22 ) ;
#261 = CARTESIAN_POINT ( 'NONE',  ( 10.00000000000000000, 10.00000000000000000, 10.00000000000000000 ) ) ;
#262 = APPROVAL_STATUS ( 'not_yet_approved' ) ;
#263 = FACE_OUTER_BOUND ( 'NONE', #4, .T. ) ;
#264 = CARTESIAN_POINT ( 'NONE',  ( 0.000000000000000000, 0.000000000000000000, 0.000000000000000000 ) ) ;
#265 = EDGE_LOOP ( 'NONE', ( #43, #102, #162 ) ) ;
#266 = FACE_OUTER_BOUND ( 'NONE', #294, .T. ) ;
#267 = EDGE_CURVE ( 'NONE', #227, #70, #192, .T. ) ;
#268 = ORIENTED_EDGE ( 'NONE', *, *, #7, .F. ) ;
#269 = DIRECTION ( 'NONE',  ( -0.000000000000000000, 0.000000000000000000, 1.000000000000000000 ) ) ;
#270 = ORIENTED_EDGE ( 'NONE', *, *, #281, .F. ) ;
#271 = LOCAL_TIME ( 10, 10, 58.00000000000000000, #229 ) ;
#272 = ADVANCED_FACE ( 'NONE', ( #80 ), #170, .T. ) ;
#273 = ORIENTED_EDGE ( 'NONE', *, *, #267, .F. ) ;
#274 = PERSON_AND_ORGANIZATION ( #85, #246 ) ;
#275 = DATE_TIME_ROLE ( 'classification_date' ) ;
#276 = ORIENTED_EDGE ( 'NONE', *, *, #281, .T. ) ;
#277 = VECTOR ( 'NONE', #254, 1000.000000000000000 ) ;
#278 = DIRECTION ( 'NONE',  ( 1.000000000000000000, 0.000000000000000000, 0.000000000000000000 ) ) ;
#279 = FACE_OUTER_BOUND ( 'NONE', #169, .T. ) ;
#280 = CARTESIAN_POINT ( 'NONE',  ( -9.999999999999998224, -10.00000000000000000, -10.00000000000000000 ) ) ;
#281 = EDGE_CURVE ( 'NONE', #25, #260, #238, .T. ) ;
#282 = EDGE_CURVE ( 'NONE', #25, #201, #78, .T. ) ;
#283 = ORIENTED_EDGE ( 'NONE', *, *, #267, .T. ) ;
#284 = LOCAL_TIME ( 10, 10, 58.00000000000000000, #216 ) ;
#285 = CARTESIAN_POINT ( 'NONE',  ( 10.00000000000000178, 9.999999999999998224, 10.00000000000000000 ) ) ;
#286 = VECTOR ( 'NONE', #259, 1000.000000000000000 ) ;
#287 = ORIENTED_EDGE ( 'NONE', *, *, #282, .T. ) ;
#288 = CARTESIAN_POINT ( 'NONE',  ( 10.00000000000000178, 9.999999999999998224, -10.00000000000000000 ) ) ;
#289 = DIRECTION ( 'NONE',  ( 0.000000000000000000, -0.000000000000000000, 1.000000000000000000 ) ) ;
#290 = DIRECTION ( 'NONE',  ( 1.000000000000000000, 0.000000000000000000, 0.000000000000000000 ) ) ;
#291 = PLANE ( 'NONE',  #63 ) ;
#292 = DATE_AND_TIME ( #18, #300 ) ;
#293 = CARTESIAN_POINT ( 'NONE',  ( -9.999999999999998224, 10.00000000000000355, 10.00000000000000000 ) ) ;
#294 = EDGE_LOOP ( 'NONE', ( #105, #29, #142, #1 ) ) ;
#295 = CARTESIAN_POINT ( 'NONE',  ( -9.999999999999998224, -10.00000000000000000, 10.00000000000000000 ) ) ;
#296 = LOCAL_TIME ( 10, 10, 58.00000000000000000, #83 ) ;
#297 = APPROVAL_STATUS ( 'not_yet_approved' ) ;
#298 = ORIENTED_EDGE ( 'NONE', *, *, #228, .F. ) ;
#299 = APPROVAL_DATE_TIME ( #33, #42 ) ;
#300 = LOCAL_TIME ( 10, 10, 58.00000000000000000, #193 ) ;
#301 = APPROVAL ( #99, 'UNSPECIFIED' ) ;
#302 = ORIENTED_EDGE ( 'NONE', *, *, #304, .F. ) ;
#303 = VECTOR ( 'NONE', #278, 1000.000000000000000 ) ;
#304 = EDGE_CURVE ( 'NONE', #244, #46, #221, .T. ) ;
#305 = CARTESIAN_POINT ( 'NONE',  ( 10.00000000000000178, -10.00000000000000000, 10.00000000000000000 ) ) ;
#306 = VECTOR ( 'NONE', #39, 1000.000000000000000 ) ;
#307 = PLANE ( 'NONE',  #117 ) ;
#308 = CARTESIAN_POINT ( 'NONE',  ( 10.00000000000000178, 9.999999999999998224, -10.00000000000000000 ) ) ;
#309 = PRODUCT ( 'BK7-NPBSC-20-900-1200', 'BK7-NPBSC-20-900-1200', '', ( #168 ) ) ;
#310 = FACE_OUTER_BOUND ( 'NONE', #242, .T. ) ;
#311 = AXIS2_PLACEMENT_3D ( 'NONE', #191, #125, #26 ) ;
#312 = DESIGN_CONTEXT ( 'detailed design', #180, 'design' ) ;
#313 = EDGE_CURVE ( 'NONE', #119, #227, #241, .T. ) ;
#314 = LINE ( 'NONE', #139, #91 ) ;
#315 = LOCAL_TIME ( 10, 10, 58.00000000000000000, #41 ) ;
#316 = DIRECTION ( 'NONE',  ( -0.000000000000000000, 0.000000000000000000, 1.000000000000000000 ) ) ;
#317 = CARTESIAN_POINT ( 'NONE',  ( 0.000000000000000000, 0.000000000000000000, -10.00000000000000000 ) ) ;
#318 = DIRECTION ( 'NONE',  ( -0.7071067811865475727, -0.7071067811865474617, 0.000000000000000000 ) ) ;
#319 = APPROVAL ( #262, 'UNSPECIFIED' ) ;
#320 = CARTESIAN_POINT ( 'NONE',  ( 10.00000000000000178, 9.999999999999998224, 10.00000000000000000 ) ) ;
#321 = CARTESIAN_POINT ( 'NONE',  ( 0.000000000000000000, 0.000000000000000000, 10.00000000000000000 ) ) ;
ENDSEC;
END-ISO-10303-21;
